Artist or group: # A B C D E F G H I J K L M N O P Q R S T U V W X Y Z

I Create

Harbor Tab

-------------------------------------------------------------------------------
                             Harbor - I Create (http://www.myspace.com/icreatemusic)
-------------------------------------------------------------------------------
Tabbed by: xstupid_kidzx
Email: scissors4yourdick@ya.ru

Tuning: standard E A D G B e

intro:

e|---------------------------------------------------------------------------|
B|---8--8--6---3--1--3-----------3-------------------------------------------|
G|-0---------3----------3--2--3-----0----------------------------------------|
D|---------------------------------------------------------------------------|
A|---------------------------------------------------------------------------|
E|---------------------------------------------------------------------------|

e|---------------------------------------------------------------------------|
B|---8--8--6---3--1--3-----------3-------------------------------------------|
G|-----------3----------3--7--3-----0----------------------------------------|
D|---------------------------------------------------------------------------|
A|---------------------------------------------------------------------------|
E|---------------------------------------------------------------------------|

e|---------------------------------------------------------------------------|
B|---8--8--6---3--1--3-----------3-------------------------------------------|
G|-----------3----------3--2--3-----0----------------------------------------|
D|---------------------------------------------------------------------------|
A|---------------------------------------------------------------------------|
E|---------------------------------------------------------------------------|

e|---------------------------------------------------------------------------|
B|---8--8--6---3--5--5--5--6--6--6-------------------------------------------|
G|-----------3---------------------------------------------------------------|
D|---------------------------------------------------------------------------|
A|---------------------------------------------------------------------------|
E|---------------------------------------------------------------------------|

second part:

e|-13-13-13-13-10-8-6---3-------------13-13-13-13-10-8-6---------------------|
B|--------------------0---3------------------------------6--6-6--10--11------|
G|---------------------------------------------------------------------------|
D|---------------------------------------------------------------------------|
A|---------------------------------------------------------------------------|
E|---------------------------------------------------------------------------|

third part:

e|-------------------------5-5-5-6-6-6-0-0-0-0-0-0---------------------------|
B|-------------3-3-3-3-3-3---------------------------------------------------|
G|-0-0-0-0-0-0---------------------------------------------------------------|
D|---------------------------------------------------------------------------|
A|---------------------------------------------------------------------------|
E|---------------------------------------------------------------------------|

e|-------------------------5-5-5-6-6-6-0-0-0-3-3-3---------------------------|
B|-------------3-3-3-3-3-3---------------------------------------------------|
G|-0-0-0-0-0-0---------------------------------------------------------------|
D|---------------------------------------------------------------------------|
A|---------------------------------------------------------------------------|
E|---------------------------------------------------------------------------|

(last time)
e|-------------------------5-5-5-6-6-6-8-8-8-10-10-10------------------------|
B|-------------3-3-3-3-3-3---------------------------------------------------|
G|-0-0-0-0-0-0---------------------------------------------------------------|
D|---------------------------------------------------------------------------|
A|---------------------------------------------------------------------------|
E|---------------------------------------------------------------------------|

fourth part:

e|-13-13-13-13-13-13-10-10-10-10-10-10-8-8-8-10-10-10-6-6-6-6-6-6------------|
B|---------------------------------------------------------------------------|
G|---------------------------------------------------------------------------|
D|---------------------------------------------------------------------------|
A|---------------------------------------------------------------------------|
E|---------------------------------------------------------------------------|

outro:
tremolo
e|---------------------------------------------------------------------------|
B|-12-11-8-3-----------------------------------------------------------------|
G|---------------------------------------------------------------------------|
D|---------------------------------------------------------------------------|
A|---------------------------------------------------------------------------|
E|---------------------------------------------------------------------------|


| /  slide up
|   slide down
| h  hammer-on
| p  pull-off
| ~  vibrato
| +  harmonic
| x  Mute note
===============================================================================
Piano, bass and

guitar Harbor Tab (I Create) chords

, tabs and lyrics. Harbor Tab song from I Create. Upload tab