Artist or group: # A B C D E F G H I J K L M N O P Q R S T U V W X Y Z

Dizzee Rascal

Jezebel Tab

This is the guitar and what may be a violin tab tabbed all for guitar.

Guitar I

----------------------------------------------------------------------------------|
----------------------------------------------------------------------------------|
----------------------------------------------------------------------------------|
---------------------------------------12-9-------9-9----12-9---------------------|
--7-----7-7----10-8----8-8--------------------------------------8----8-8----10-8--|
----------------------------------------------------------------------------------|


Guitar II

--10-8-7-7---------7-------------------7---10-8-7-7---------7-------------------7-|
-----------10-8-10---10-8-10-8-10-8-10--------------10-8-10---10-8-10-8-10-8-10---|
----------------------------------------------------------------------------------|
----------------------------------------------------------------------------------|
----------------------------------------------------------------------------------|
----------------------------------------------------------------------------------|
Piano, bass and

guitar Jezebel Tab (Dizzee Rascal) chords

, tabs and lyrics. Jezebel Tab song from Dizzee Rascal. Upload tab