Artist or group: # A B C D E F G H I J K L M N O P Q R S T U V W X Y Z

Dizzee Rascal

Excuse Me Please Bass Tab

-------------------------------------------------------------------------------
			     "Excuse Me" Please by Dizzee Rascal
-------------------------------------------------------------------------------

Tabbed By : bass113@msn.com


The whole song has a continued bass part which every so often has a slight variation to 
ending of the riff, I believe it is best
to improvise this to add your own touch to the piece.

The main grove groove goes like this...

G|-------------------|
D|---------5--7-7----|
A|-5-5--8------------|
E|-------------------|


The variations           or                          or

G|----------------7-5-7-|----------------5-7-9-7-5--|----------------------|
D|---------5--7-7-------|---------5--7-7----------7-|---------5--7-7-5-----|
A|-5-5--8---------------|-5-5--8--------------------|-5-5--8-----------8-0-|
E|----------------------|---------------------------|----------------------|
Piano, bass and

guitar Excuse Me Please Bass Tab (Dizzee Rascal) chords

, tabs and lyrics. Excuse Me Please Bass Tab song from Dizzee Rascal. Upload tab