Artist or group: # A B C D E F G H I J K L M N O P Q R S T U V W X Y Z

Dizzee Rascal

Dance Wiv Me (ver 6) Bass Tab

"Dance wiv me" by Dizzee Rascal ft Calvin Harris
Calvin Harris Studio Version

Tabbed by: Alex Kehoe

www.alexkehoe.co.uk
To watch how this is played check out the video on my site


Tuning G D A Eb (NOTE- I have tuned down the Eb for the album version of this song. Some 
versions including the live version are played a semitone up and so would not require 
the Eb note in part 2)


These are the four part you will need in the song. After a couple listens you will 
easily place which part to use where.

Part 1

G | ------------------------------|
D | ---------------4-5------------|
A | 444-4--6--7--77---7-4--44-2-4-|
Eb| ------------------------------|

Part2

G | -----------------------------------|
D | ----------------0-0----------------|
A | 444-4--2--1--11----2---------------|
Eb| ---------------------5--55--3--1-0-|

Part 3

G | ----------------------------------------|
D | ----------------------------------------|
A | ----------------------------------------|
Eb| 5-----5--5----------5------5---5--|

Middle 8/Outro

G | ------------------------|
D | ------------------------|
A | ----------------------4-|
Eb| 3-----6-------3---------|




Tabbed by Alex Kehoe

www.alexkehoe.co.uk

Join the mailing list on my site to receive my EXCLUSIVE article "How do you change your 
amateur band into a professional band?"

To watch how this is played please check out the video on my site.

| /  slide up
|   slide down
| h  hammer-on
| p  pull-off
| ~  vibrato
| +  harmonic
| x  Mute note
Piano, bass and

guitar Dance Wiv Me (ver 6) Bass Tab (Dizzee Rascal) chords

, tabs and lyrics. Dance Wiv Me (ver 6) Bass Tab song from Dizzee Rascal. Upload tab