Artist or group: # A B C D E F G H I J K L M N O P Q R S T U V W X Y Z

Dizzee Rascal

Dance Wiv Me (ver 5) Bass Tab

Same as the other one, just up an octave, I think it sounds better, even if it's a 
little harder to play.

G|----6666---8-9--99--11--13---9--6--66-4-6 x2 ------------------------------|
D|---------------------------------------------------------------------------|
A|---------------------------------------------------------------------------|
E|---------------------------------------------------------------------------|


G|--6666----4-3---333---2-4-1--1-1-------------------------------------------|
D|---------------------------------4-2-1-------------------------------------|
A|---------------------------------------------------------------------------|
E|---------------------------------------------------------------------------|


G|--------6666---8-9--99--11--13---9--6--66-4-6------------------------------|
D|---------------------------------------------------------------------------|
A|---------------------------------------------------------------------------|
E|---------------------------------------------------------------------------

That's it all the way through the song!
Piano, bass and

guitar Dance Wiv Me (ver 5) Bass Tab (Dizzee Rascal) chords

, tabs and lyrics. Dance Wiv Me (ver 5) Bass Tab song from Dizzee Rascal. Upload tab