Artist or group: # A B C D E F G H I J K L M N O P Q R S T U V W X Y Z

Dizzee Rascal

Dance Wiv Me (ver 4) Bass Tab

-------------------------------------------------------------------------------
		Dance Wiv Me - Dizzee Rascal ft. Calvin Harris
-------------------------------------------------------------------------------

Tabbed By : nick270b
e-mail: nick270b@hotmail.co.uk

Watch the cover here: http://uk.youtube.com/watch?v=eTup3XymQNw

Tuning: Standard

G|----------------------------------|
D|----------------------------------|
A|--------6-7--7-7-9-11-7-----------|
E|-9-9-9-9---------------9--9-9-7-9-|


G|----------------------------------------|
D|----------------------------------------|
A|----------------------------------------|
E|-9-9-9-9-7-6--6-6-6--5-5-7-4--4-4-2-0-0-|



G|---------------------------------|
D|---------------------------------|
A|---------------------------------|
E|--5/0--5/0-5/0--5/0-5/0--5/0-5/0-|



G|-----------------|
D|-----------------|
A|-----------------|
E|--7~--5~--2~--9~-|



| /  slide up
|   slide down
| h  hammer-on
| p  pull-off
| ~  vibrato
| +  harmonic
| x  Mute note
===============================================================================
Piano, bass and

guitar Dance Wiv Me (ver 4) Bass Tab (Dizzee Rascal) chords

, tabs and lyrics. Dance Wiv Me (ver 4) Bass Tab song from Dizzee Rascal. Upload tab