Artist or group: # A B C D E F G H I J K L M N O P Q R S T U V W X Y Z

Dizzee Rascal

Dance Wiv Me (ver 3) Bass Tab

G  :--------------------|1-----------------|
D  :----------1-2---2-4-|--2---------------|
A  :4-4-4---4-----------|----4---4-4-2-4---|
E  :--------------------|------------------|

G  :--------------------|1-----------------|
D  :----------1-2---2-4-|--2---------------|
A  :4-4-4---4-----------|----4---4-4-2-4---|
E  :--------------------|------------------|

G  :--------------------|--------------------|
D  :--------------------|--------------------|
A  :4-4-4---4-2-1---1---|0-0-0---0-2-------2-|
E  :--------------------|------------4-2-0---|

G  :--------------------|1-----------------|
D  :----------1-2---2-4-|--2---------------|
A  :4-4-4---4-----------|----4---4-4-2-4---|
E  :--------------------|------------------|
Piano, bass and

guitar Dance Wiv Me (ver 3) Bass Tab (Dizzee Rascal) chords

, tabs and lyrics. Dance Wiv Me (ver 3) Bass Tab song from Dizzee Rascal. Upload tab