Artist or group: # A B C D E F G H I J K L M N O P Q R S T U V W X Y Z

Dizzee Rascal

Dance Wiv Me (ver 2) Tab

This is as good as it gets in standard tuning. Not really a guitar song so do what you 
with it. Hope you like it.


[0'34]

e---4-4-4---4-4-4---4---7-7-7---4-4-4---4|
B---4-4-4---4-4-4---4---7-7-7---4-4-4---4|
G----------------------------------------|
D----------------------------------------|
A----------------------------------------|
E----------------------------------------|


e---4-4-4---4-4-4---4---7-7-7---4-4-4---4|
B---4-4-4---4-4-4---4---7-7-7---4-4-4---4|
G----------------------------------------|
D----------------------------------------|
A----------------------------------------|
E----------------------------------------|


e---4-4-4---6-6-6---6---5-5-5---7-7-7---7|
B---4-4-4---6-6-6---6---5-5-5---7-7-7---7|
G----------------------------------------|
D----------------------------------------|
A----------------------------------------|
E----------------------------------------|


e---4-4-4---4-4-4---4---7-7-7---4-4-4---4|
B---4-4-4---4-4-4---4---7-7-7---4-4-4---4|
G----------------------------------------|
D----------------------------------------|
A----------------------------------------|
E----------------------------------------|

BASS

G-----------------------------------------|
D-----------------------4-6---------------|
A-----4-4-4-4-4-6-7---7-----7-4---4-4-2-4-|
E-----------------------------------------|

G-----------------------------------------|
D-----------------------4-6---------------|
A-----4-4-4-4-4-6-7---7-----7-4---4-4-2-4-|
E-----------------------------------------|

G--------------------------------------------|
D--------------------------------------------|
A-----4-4-4-4-4-2-1---1--1-1-0-0-0-2-------2-|
E------------------------------------4-2-0---|

G-----------------------------------------|
D-----------------------4-6---------------|
A-----4-4-4-4-4-6-7---7-----7-4---4-4-2-4-|
E-----------------------------------------|

[2'16]

e-------------9------wait---------9-----------9---11--9.tremolo back into chorus for the laugh.|
B--12-10-9~ ------9--wait------------9---------------------------------------------------------|
G----------------------------------------------------------------------------------------------|
D----------------------------------------------------------------------------------------------|
A----------------------------------------------------------------------------------------------|
E----------------------------------------------------------------------------------------------|

G-------------------|
D-------------------| Bass Piano notes.
A--2--------------4-|
E-------4----2------|


Copyright Brad R. Jackson 2008 (c)
Piano, bass and

guitar Dance Wiv Me (ver 2) Tab (Dizzee Rascal) chords

, tabs and lyrics. Dance Wiv Me (ver 2) Tab song from Dizzee Rascal. Upload tab