Artist or group: # A B C D E F G H I J K L M N O P Q R S T U V W X Y Z

Dizzee Rascal

Dance Wiv Me Bass Tab

G------------------------------------------------------------|
D----------------------------16-18---------------------------|
A-16-16-16-16-18-19----19-19----------19-16--16-16-14-16-----|
E------------------------------------------------------------|   X2


G------------------------------------------------------------|
D------------------------------------------------------------|
A-16-16-16-16-14-13----13-13-13-12-14-11----11-11------------|
E-------------------------------------------------14-12-11---|


G------------------------------------------------------------|
D----------------------------16-18---------------------------|
A-16-16-16-16-18-19----19-19----------19-16--16-16-14-16-----|
E------------------------------------------------------------|
Piano, bass and

guitar Dance Wiv Me Bass Tab (Dizzee Rascal) chords

, tabs and lyrics. Dance Wiv Me Bass Tab song from Dizzee Rascal. Upload tab