Artist or group: # A B C D E F G H I J K L M N O P Q R S T U V W X Y Z

Damasutra

Umpama Mimpi Dalam Mimpi Intro Tab

DAMASUTRA - Umpama Mimpi Dalam Mimpi (intro)



Key:

^  - bend
^^ - full bend
h  - hammer on
p  - pull off
r  - release bend
/  - slide down
  - slide up
~  - vibrato
() - finger tap



Intro:


         Em                         C                        
e|--------7~-------------------------------------------------12~---|
B|------8-----10~--7h8-8~---7h8p7-5-7/8-7--------12-10-------------|
G|----9-----------------------------------5-5----12----12-11-------|
D|--9--------------------------------------------12----------------|
A|-----------------------------------------------------------------|
E|-----------------------------------------------------------------|


                Em                                             C  
e|------------------------------------------------------------------|
B|--12p10------------------------------------------------10---------|
G|--------12-11-11--11h12-9~-----9-12-11~-----9-12-11h12----12-11---|
D|-----------------------------9------------9-----------------------|
A|------------------------------------------------------------------|
E|------------------------------------------------------------------|


                                            Em
e|--------------12p10----------------------------------------|
B|--10-10-10----------13p12-12p10-108-----------------------|
G|-------------------------------------12p11-11~--11h12-9~---|
D|-----------------------------------------------------------|
A|-----------------------------------------------------------|
E|-----------------------------------------------------------|


                             C
e|---------------------------------------7----7----------------|
B|--12-10-----------------10---------------10---8-10-7-8---7---|
G|--12----12-11--9--11/12----11---9-8--------------------9-----|
D|--12---------------------------------------------------------|
A|-------------------------------------------------------------|
E|-------------------------------------------------------------|


                                          Em
e|------------------------------------------------------------12---|
B|------------------------------------------------12-10------------|
G|--8-9----8--------------------------------------12----12-11------|
D|------10---9-10-7-9----7------------------------12---------------|
A|--------------------10---9-10-7-9-6-7-9--7~----------------------|
E|-----------------------------------------------------------------|



e|--15---14^r--12~------||
B|----------------------||
G|----------------------||
D|----------------------||
A|----------------------||
E|----------------------||


Em
Kenangan bersamamu...



Guitar Tabs by rizalwahap
Piano, bass and

guitar Umpama Mimpi Dalam Mimpi Intro Tab (Damasutra) chords

, tabs and lyrics. Umpama Mimpi Dalam Mimpi Intro Tab song from Damasutra. Upload tab