Artist or group: # A B C D E F G H I J K L M N O P Q R S T U V W X Y Z

C418

Wet Hands Minecraft (ver 2) Tab

-------------------------------------------------------------------------------
                             WET HANDS - C418
-------------------------------------------------------------------------------
Tabbed by: Caelan Jewell
E-mail: Exeletor1@gmail.com

Tuning: E major

The way i play the song is with 2 guitars (not by myself obviously) so thats how
im tabbing it.

GUITAR 1

e|------------------------|                
B|------------------------|
G|---2-4-6-4-2----6-9-6---|     x4  
D|--2---------2--------7--|
A|-0-----------5-9--------|
E|------------------------|

e|------------------------|
B|------------------------|
G|------2---------2-------|     x2
D|---0-4-4-0---0-4--------|
A|--2-------2-2-----------|
E|-3---------3------------|

e|------------------------|
B|------------------------|
G|--------------------4---|
D|----7-9-11-9-7-2---2----|
A|-0-4------------0-4-----|
E|------------------------|

e|---------------------------------------------------------------------------|
B|---------------------------------------------------------------------------|
G|-----2-6----------------------------------------------------2---------4-6--|
D|--0-4--------0-5-7-----2-----------2-6-2-------2-6-2-----0-4-4-0-----2-----|
A|-2----------2----------0----------2-----2-----2-----2-0-2-------2-0-4------|
E|-----------3-------------------0-4-------4-0-4---------3-------------------|

e|---------------------------------------------------------------------------|
B|---------------------------------------------------------------------------|
G|-4-2-----------------------------------------------------------------------|
D|----2------6-----------6---------------------------------------------------|
A|--------2-2---------2-2----------------------------------------------------|
E|-----0-4---------0-4-------------------------------------------------------|

GUITAR 2

e|-------------------7-9----9-12-15---14-10----------------------------------|
B|-9---10-7----7-9------7------------------10-12---------8-7---10-12--10-----|
G|------------9---------------------------------------------7-----------9----|
D|---------------------------------------------------------------------------|
A|---------------------------------------------------------------------------|
E|---------------------------------------------------------------------------|

e|------9-12---9----10-7-9-10-9-10-14--9-------------------------------------|
B|----10--10----10-7-----------------------4-2-4-----------------------------|
G|-6-9------------9----------------------------------------------------------|
D|---------------------------------------------------------------------------|
A|---------------------------------------------------------------------------|
E|---------------------------------------------------------------------------|

The 2nd guitars part ends sooner than the 1sts. keep that in mind. you will 
have to listen for the timing in the song. i did not expect to be up so late
finishing this, so if there are any mistakes please let me know in the comments 
and i will correct them. here is a link to help you with the timing, blue is 
first guitar and green is second:

https://www.youtube.com/watch?feature=player_detailpage&v=ybG1rle3-xQ

rate and share please!
Piano, bass and

guitar Wet Hands Minecraft (ver 2) Tab (C418) chords

, tabs and lyrics. Wet Hands Minecraft (ver 2) Tab song from C418. Upload tab