Artist or group: # A B C D E F G H I J K L M N O P Q R S T U V W X Y Z

C418

Aria Math Solo Tab

-------------------------------------------------------------------------------
                             Aria Math - C418 
                   (Minecraft Soundtrack, Volume beta)
-------------------------------------------------------------------------------
Tabbed by: Lychee
E-mail: Elijah.schutz@gmail.com

KEY
****************
| /   slide up
|    slide down
| h   hammer-on
| p   pull-off
****************

This is the second part of C418's 'Aria Math' from the second Minecraft OST album:

e|7--0-3----2-3-7p0---10-7-2p0-----------------------------------------------|
B|-------------------------------0h3/5---------------------------------------|
G|---------------------------------------------------------------------------|
D|---------------------------------------------------------------------------|
A|---------------------------------------------------------------------------|
E|---------------------------------------------------------------------------|

Here it is with more slides, pull-offs, and hammers:

e|7p0h3-----2/3-7p0---107-2p0-----------------------------------------------|
B|-------------------------------0h3/5---------------------------------------|
G|---------------------------------------------------------------------------|
D|---------------------------------------------------------------------------|
A|---------------------------------------------------------------------------|
E|---------------------------------------------------------------------------|

And repeat.

NOTE: For the 107 part, you can hold down both frets and play the note, then pluck the string with the 
finger that was on the 10th fret.

There are two instrumentals in the song that can be played on guitar but I haven't figured out the other
one. If anyone has tabbed or found the tab for it if you put it in the description that would be
appreciated :)

That's all from me,

Lychee
Piano, bass and

guitar Aria Math Solo Tab (C418) chords

, tabs and lyrics. Aria Math Solo Tab song from C418. Upload tab