Artist or group: # A B C D E F G H I J K L M N O P Q R S T U V W X Y Z

A Certain Ratio

Shack Up (ver 2) Bass Tab

A Certain Radio - Shack Up
What I got was a little different than what the current tab said so I'll post my 
 The middle part of the main riff is hard to hear but I think I got it.  Feel free to post a 
if you think im off.

Intro
G-----------------------------------|
D-----------------------------------|
A-----------------------------------|
E--0-0-0-0-0-0-0-0-0-0-0-0-0-0-0-0--|

Bridge
G------------------------|      X8
D------------------------|
A--5----3----------------|
E-------------0----------|

Main Riff
G-----------------------------------------|
D------------------0h2------------------2-|
A--------------0h2------------------0h2---|
E---0-2-3-2----------------0--2-3-2-------|

Thats what I heard
Piano, bass and

guitar Shack Up (ver 2) Bass Tab (A Certain Ratio) chords

, tabs and lyrics. Shack Up (ver 2) Bass Tab song from A Certain Ratio. Upload tab