Artist or group: # A B C D E F G H I J K L M N O P Q R S T U V W X Y Z

La Base

Mueve La Cola Chords

Lo ultimo de la base!!! espero q les guste,
es super facil, asi q no vana a tener problemas...
Escuchenlo y tokenlo q esta re piooooolaaaaaa!!!!...
Cumbia Base...lo mejor de la Cumbia Villera!!!!!

Bm
Muevan la cola, muevan la cola
muevan la cola las pibas bien piola...
Muevan la cola, muevan la cola
muevan la cola las pibas bien piola...

Alzen las manos los que le gusta la joda
Alzen las manos los que le gusta la joda
meneando la cola, meneando la cola
meneando la cola las pibas bien piola...

Solo
E------------7-7--------------------------7-7--------------------------
B-4-4-6-6-7-7---7-7-6-6-7-6-4--4-4-6-6-7-7---7-7-6-6-7-6-4/3/4/3/4/3/4-
G----------------------------------------------------------------------
D----------------------------------------------------------------------

E------------------------------------------3--------------
B-4-2-2-2-0-0-2-4-4-2-4--4-2-2-2-0-0-2-4-4--4/2/4/2/4/2/4-
G---------------------------------------------------------
D---------------------------------------------------------


Bm
Vamos todos a la pista, vamos todos a mover
        A                          Bm
que mi ritmo a las pibitas las descoca van a ver
Vamos todos a la pista, vamos todos a mover
        A                          Bm
que mi ritmo a las pibitas las descoca van a ver

Repite todo...

Bm
Muevan la cola, muevan la cola
muevan la cola las pibas bien piola...
Muevan la cola, muevan la cola
muevan la cola las pibas bien piola...
Piano, bass and

guitar Mueve La Cola Chords (La Base) chords

, tabs and lyrics. Mueve La Cola Chords song from La Base. Upload tab