Artist or group: # A B C D E F G H I J K L M N O P Q R S T U V W X Y Z

Dizzee Rascal

Dance Wiv Me (ver 3) Tab

-------------------------------------------------------------------------------
                             Dance Wiv Me - Dizzee Rascall
-------------------------------------------------------------------------------
Tabbed by: cannibal_freak1
Email: ditto_ditto_3@hotmail.co.uk

Tuning: standard

e|-------------------------------------|
B|-------------------------------------|
G|-------------------------------------|
D|---------------------6---------------| x2
A|--4-4-4-4-6-7--7-7-9---7-4--4-4-2-4--|
E|-------------------------------------|

e|-------------------------------------|
B|-------------------------------------|
G|-------------------------------------|
D|-------------------------------------| x1
A|--4-4-4-4-2-1--0-0-0-0-0-2--------2--|
E|---------------------------4--4-4----|

e|-------------------------------------|
B|-------------------------------------|
G|-------------------------------------|
D|---------------------6---------------| x1
A|--4-4-4-4-6-7--7-7-9---7-4--4-4-2-4--|
E|-------------------------------------|



| /  slide up
|   slide down
| h  hammer-on
| p  pull-off
| ~  vibrato
| +  harmonic
| x  Mute note
===============================================================================
Piano, bass and

guitar Dance Wiv Me (ver 3) Tab (Dizzee Rascal) chords

, tabs and lyrics. Dance Wiv Me (ver 3) Tab song from Dizzee Rascal. Upload tab