Artist or group: # A B C D E F G H I J K L M N O P Q R S T U V W X Y Z

Dizzee Rascal

Bonkers (ver 3) Tab

-------------------------------------------------------------------------------
                             Bonkers - Dizzee Rascal
-------------------------------------------------------------------------------
Tabbed by: D C Slater

To be played on slide guitar

Tuning: Open G
                         Main riff carried throughout song
d|---------------------------------------------------------------------------|
B|---------------------------------------------------------------------------|
G|-0-2/4-2-0---0-2/4-2-0---0-7/9-11-11-12-12-12-14-14----------------------|
D|-0-2/4-2-0---0-2/4-2-0---0-7/9-11-11-12-12-12-14-14----------------------|
G|-0-2/4-2-0---0-2/4-2-0---0-7/9-11-11-12-12-12-14-14----------------------|
D|---------------------------------------------------------------------------|
                                             ^
                        (This middle 12th is a fast scratch note)


         Variety riff (thrown in to break the song up - you choose where)

d|--12-14/16-14-12---12-14/16-14-12---12-129-11-11-12-12-12-14-14---------|
B|--12-14/16-14-12---12-14/16-14-12---12-129-11-11-12-12-12-14-14---------|
G|---------------------------------------------------------------------------|
D|---------------------------------------------------------------------------|
G|---------------------------------------------------------------------------|
D|---------------------------------------------------------------------------|
                                                          ^
                                (This middle 12th is a fast scratch note)



Have fun with this

************************************

| /   slide up
|    slide down


************************************
Piano, bass and

guitar Bonkers (ver 3) Tab (Dizzee Rascal) chords

, tabs and lyrics. Bonkers (ver 3) Tab song from Dizzee Rascal. Upload tab